Eye Of The Tiger — Green Day

Гитара

Бой

Помогите выбрать бой

Аккорды

						 
|-----------------------------------------|
|-----------------------------------------|
|-------------------------------------5---|
|-5555555555555555-55555555555555555--5---|
|-3333333333333333-33333333333333333--3---|
|-----------------------------------------|
 
|---------------------------------------------------------------------------
|---------------------------------------------------------------------------
|-------5--3--5-----------5--3--5-----------5---------------------------5---
|-55555-5--3--5--55555555-5--3--5--55555555-5--5--6---5555555555555555--5---
|-33333-3--1--3--33333333-3--1--3--33333333-3--5--6---3333333333333333--3-3-
|----------------------------------------------3--4-------------------------

|---------------------------------------------------------------------------
|---------------------------------------------------------------------------
|-------5--3--5-----------5--3--5-----------5---------------------------5---
|-55555-5--3--5--55555555-5--3--5--55555555-5--5--6---5555555555555555--5---
|-33333-3--1--3--33333333-3--1--3--33333333-3--5--6---3333333333333333--3-3-
|----------------------------------------------3--4-------------------------

|-----------------------------------------
|-----------------------------------------
|-------------------------------------5---
|-5555555555555555-55555555555555555--5---
|-3333333333333333-33333333333333333--3---
|-----------------------------------------

|-----------------------------------------
|-----------------------------------------
|-----------------------------------------
|-5555555555555555------------------------
|-3333333333333333--666666666666----------
|-------------------444444444444----------

|-----------------------------------------
|-----------------------------------------
|-------------------------------------5---
|-5555555555555555-55555555555555555--5---
|-3333333333333333-33333333333333333--3---
|-----------------------------------------

|----------------
|----------------
|-------5--3--5--
|-55555-5--3--5--
|-33333-3--1--3--
|----------------

|-----------------------------------------
|-----------------------------------------
|-----------------------------------------
|-5555555555555555------------------------
|-3333333333333333--666666666666----------
|-------------------444444444444----------

|-----------------------------------------|
|-----------------------------------------|
|-------------------------------------5---|
|-5555555555555555-55555555555555555--5---|
|-3333333333333333-33333333333333333--3---|
|-----------------------------------------|

----------------|
----------------|
-------5--3--5--|
-55555-5--3--5--|
-33333-3--1--3--|
----------------|

repeat
----------------|
----------------|
----------------|
----------------|
-666--8-8-8-88--|
-444--6-6-6-66--|

-----------------------------------------|
-----------------------------------------|
-----------------------------------------|
---------------8--6--6-6-6-6-------------|
-6-5-6--8-6-8--6--4--4-4-4-4-------------|
-4-3-4--6-4-6----------------------------| 
					

Аккорды Green Day - Eye Of The Tiger для гитары

Какой бой?
Помогите начинающим выбрать бой для этой песни
Выберите бой и нажмите кнопку Голосовать
Проголосовали 0 человека

Еще песни

UGuitar