Until Tomorrow — Paramore

Гитара

Бой

Помогите выбрать бой

Аккорды

						 
 e 4-3-------            e 4-3-----8-6-| 
 B ----4-4---            B ----4-------| 
 G -----3-3-- x3  then   G -----3------| 
 D ----------            D ------------| 
 A ----------            A ------------| 
 E ----------            E ------------| 
 
(tab enters in word "climb") 
          C                Am             G             D  
e|----------0-----|---------0-----|---------3-----|---------2-----| 
B|--1---1-----1---|-1---1-----1---|-3---3-----3---|-3---3-----3---| 
G|----0--------0--|---2--------2--|---0--------0--|---2--------2--| 
D|------2---------|-----2---------|-----0---------|-----0---------| 
A|--3-------3-----|-0-------0-----|-2-------2-----|-0-------0-----| 
E|----------------|---------------|---------------|---------------| 
 i climb..i fall   reaching..but i lay..all alone  sweating..blood 
 
Do the same tab pattern: 
If I could find out how to make you listen now 
because Im starving for you here my undying love 
 
        C               Am              G              D  
e|----------------------------------------------------------------| 
B|-1---1---1---1---1---1---1---1---3---3---3---3---3---3---3---3*-| 
G|---0---0---0---0---2---2---2---2---0---0---0---0---2---2---2----| 
D|----------------------------------------------------------------| 
A|-3---3---3---3---0---0---0---0---2---2---2---2---0---0---0---0*-| 
E|----------------------------------------------------------------| 
 and I.............................. I wil................
(*-let ring) 
  
(strum the chords, gentle and slow) 
 C                  D  
Breathe for love tomorrow 
              Am             G  
Cause there's no hope for today 
 C                   D  
Breathe for love tomorrow 
              Am            G  
Cause maybe theres another way 
 
then:
          C                Am             G             D  
e|----------0-----|---------0-----|---------3-----|---------2-----|-2------| 
B|--1---1-----1---|-1---1-----1---|-3---3-----3---|-3---3-----3---|---3-3--| 
G|----0--------0--|---2--------2--|---0--------0--|---2--------2--|----2-2-| 
D|------2---------|-----2---------|-----0---------|-----0---------|--------| 
A|--3-------3-----|-0-------0-----|-2-------2-----|-0-------0-----|-0----0-| 
E|----------------|---------------|---------------|---------------|--------| 
 i climb..i fall  into your..but i lay.. all alone sweating..blood 
					

Аккорды Paramore - Until Tomorrow для гитары

Какой бой?
Помогите начинающим выбрать бой для этой песни
Выберите бой и нажмите кнопку Голосовать
Проголосовали 0 человека

Еще песни

UGuitar