Faster Pussycat — The Cramps

Гитара

Бой

Помогите выбрать бой

Аккорды

						 
Cramps
Faster Pussycat

This is the Cramps cover of the song "Faster Pussycat" the original song is from the movie:
"Faster, Pussycat! Kill! Kill!"


Cm                               G#                                   G
If you want wild living fast and if you want to end up give it your all

                 F                              C#m           
that's because pussycat she's living reckless pussycat she's riding high

F#                                                 C#m
if you think that you could take her well just you try

F#               G#         F#                    F
  it's that she doesn't see    what's wrong from right

A#               G#           G               Cm
  she's running fast and free   child of the night

Cm                                   G#                                     G
in her life there'll be no time for love you'll never take her make up your mind

                F                               C#m
you will find pussycat she's living reckless pussycat she's riding high

F#                                                  C#m
if you think that you could take her well just you try


well give it a try

*solo

/ - slide up
 - slide down

e-------------------------------------------------
B------3--------3-------------3--------3----------
G---------5--------5-------------5--------5-------
D---5--------5--------5-5--6--------6--------6-6-- repeat one more time
A-------------------------------------------------
E-------------------------------------------------

e------------1-----------1-----/6----4----/6----4----3-----------------------------
B------------1-----------1-----/6----4----/6----4----3-----------------------------
G---0-----0--2--0-----0--2-----/7----5----/7----5----4-----------------------------
D------1-----3-----1-----3-----/8----6----/8----6----5-----------------------------
A------------3-----------3-----/8----6----/8----6----5-----------------------------
E------------1-----------1-----/6----4----/6----4----3----8-8-8-7-7-7-6-6-6-5-5-5--


F#               G#         F#                   F
  it's that she doesn't see   what's wrong from right

A#               G#            G               Cm
   she's running fast and free   child of the night

Cm                                    G#                                     G
in her life there'll be no time for love you'll never take her make up your mind

               F                               C#m
you will find pussycat she's living reckless pussycat she's riding high

F#                                                    C#m
   if you think that you could take her well just you try

F#               C#m   F#               C#m   
   well just you try   well come on and try 

F#                        C#m    F#               C#m
  come on and come on and try    well come on and try 
					

Аккорды The Cramps - Faster Pussycat для гитары

Какой бой?
Помогите начинающим выбрать бой для этой песни
Выберите бой и нажмите кнопку Голосовать
Проголосовали 0 человека

Еще песни

UGuitar