До скорой встречи — Звери

Гитара

Бой

Аккорды

						 
Вступление:
E|--------------------------------------------|
B|-5-4-5-2--5-7-7-5-7-5--5-4-5-2--5-7-7-5-7-9-|
G|--------------------------------------------|

	   Dm
Вчерашний вечер
	G		 Am
Из подворотни, на все согласен
           Dm
Спасаться нечем
      G		 Am
И я охотник и я опасен
	  Dm
И очень скоро
G 	        Am  F
Еще минута и доверяю
       Dm            F	 
И мухоморы, конечно круто
          E
Но тоже вряд ли

Припев: x2
	     F                  Dm
	До скорой встречи, до скорой встречи, 
	 G              C          
	Моя любовь к тебе навечно   
             F           Dm     E    
	До скорой встречи, До скорой встречи 

	   Dm
Тычинка-пестик
	G                Am
Любовь научит, совсем не пошло,
	   Dm
Когда мы вместе
      G		 Am
Никто не круче, но это в прошлом
	  Dm
И я не знаю, 
G 	        Am  F
И я теряю вчерашний вечер,
       Dm            F	 
Моя смешная, моя сквозная,
          E
До скорой встречи

Припев: x2
	     F                  Dm
	До скорой встречи, до скорой встречи, 
	 G              C          
	Моя любовь к тебе навечно   
             F           Dm     E    
	До скорой встречи, до скорой встречи 

	   Dm
Моя love-story,
	G                Am
Короче ночи, смотрю на время,
	   Dm
И беспонтово 
	G                Am
Мотает счетчик, такси на север
	  Dm
И я не знаю, 
G 	        Am  F
И я теряю вчерашний вечер,
        Dm            F
Моя смешная, моя родная,
          E
До скорой встречи

Припев: x2
	     F                  Dm
	До скорой встречи, до скорой встречи, 
	 G              C          
	Моя любовь к тебе навечно   
             F           Dm     E    
	До скорой встречи, До скорой встречи 

Соло:
E||----------5----5--------|----------5---5----------|--5-5-5-5-------------------------|
B||--6--8------------------|--8--6-------------------|------------8--8---6--6-----------|
G||------------------------|-------------------------|----------------------------------|
D||------------------------|-------------------------|----------------------------------|
A||------------------------|-------------------------|----------------------------------|
E||------------------------|-------------------------|----------------------------------|
                                                                                            
|----------------|-------------------------|---------------------|----------------------------|
|----------------|-------------------------|---------------------|----------------------------|
|--9--9--7--9----|-------------------------|----------------7----|--9----10--9----------------|
|----------------|--10----7----7--9--10----|--9----10--9---------|----------------7----9------|
|----------------|-------------------------|---------------------|----------------------------|
|----------------|-------------------------|---------------------|----------------------------|
                                                                                             
|--------------10--12----15--12--|----------12--13--15--12----|----------------------------12----|
|--10--12--13--------------------|----------------------------|-----15--15--13-13--12-13---------|
|--------------------------------|----------------------------|----------------------------------|
|--------------------------------|----------------------------|----------------------------------|
|--------------------------------|----------------------------|----------------------------------|
|--------------------------------|----------------------------|----------------------------------|
                                                                          
|----------------------|----------------------|--17----15--17---------------|
|------15----13---12---|----------------------|-----------------------------|
|----------------------|--14----12--14--------|-----------------------------|
|----------------------|----------------------|-----------------------------|
|----------------------|----------------------|-----------------------------|
|----------------------|----------------------|-----------------------------|
                                     
|-----------------------------|-----------17--19-20-21^^----------||
|----17--18--17--15--17-------|-------17--------------------------||
|-----------------------------|---19------------------------------||
|-----------------------------|-----------------------------------||
|-----------------------------|-----------------------------------||
|-----------------------------|-----------------------------------|| 
					

Аккорды Звери - До скорой встречи для гитары

Какой бой?
Помогите начинающим выбрать бой для этой песни
Выберите бой и нажмите кнопку Голосовать
Проголосова 1 челове

Еще песни

UGuitar